ISO-10303-21;
HEADER;
/* Generated by software containing ST-Developer
 * from STEP Tools, Inc. (www.steptools.com) 
 */

FILE_DESCRIPTION(
/* description */ (''),
/* implementation_level */ '2;1');

FILE_NAME(
/* name */ 
'D:\\SFC\\3-Autodesk\\2014-01-30 GrabCAD\\11 - Piesele din album\\Part
 009.stp',
/* time_stamp */ '2015-02-19T16:04:02+02:00',
/* author */ ('SFC'),
/* organization */ (''),
/* preprocessor_version */ 'ST-DEVELOPER v15.2',
/* originating_system */ 'Autodesk Inventor 2014',
/* authorisation */ '');

FILE_SCHEMA (('AUTOMOTIVE_DESIGN { 1 0 10303 214 3 1 1 }'));
ENDSEC;

DATA;
#10=MECHANICAL_DESIGN_GEOMETRIC_PRESENTATION_REPRESENTATION('',(#13),#603);
#11=SHAPE_REPRESENTATION_RELATIONSHIP('SRR','None',#612,#12);
#12=ADVANCED_BREP_SHAPE_REPRESENTATION($,(#329),#602);
#13=STYLED_ITEM('',(#621),#329);
#14=TOROIDAL_SURFACE('',#364,12.25,1.);
#15=TOROIDAL_SURFACE('',#365,12.25,1.);
#16=CYLINDRICAL_SURFACE('',#349,12.25);
#17=CYLINDRICAL_SURFACE('',#355,21.5);
#18=CYLINDRICAL_SURFACE('',#359,22.);
#19=CYLINDRICAL_SURFACE('',#362,12.25);
#20=CYLINDRICAL_SURFACE('',#367,12.25);
#21=CYLINDRICAL_SURFACE('',#371,34.5);
#22=B_SPLINE_CURVE_WITH_KNOTS('',3,(#521,#522,#523,#524,#525,#526,#527,
#528,#529,#530,#531,#532,#533,#534,#535,#536,#537,#538,#539),
 .UNSPECIFIED.,.F.,.F.,(4,2,2,2,3,2,2,2,4),(0.445054159633193,0.482237124893987,
0.519351035254614,0.556393757924206,0.593382358301343,0.630370958678479,
0.667413681348071,0.704527591708698,0.741710556969493),.UNSPECIFIED.);
#23=B_SPLINE_CURVE_WITH_KNOTS('',3,(#544,#545,#546,#547,#548,#549,#550,
#551,#552,#553,#554,#555,#556,#557,#558,#559,#560,#561,#562),
 .UNSPECIFIED.,.F.,.F.,(4,2,2,2,3,2,2,2,4),(0.445054159633193,0.482237124893987,
0.519351035254614,0.556393757924206,0.593382358301343,0.630370958678479,
0.667413681348071,0.704527591708698,0.741710556969493),.UNSPECIFIED.);
#24=(
BOUNDED_CURVE()
B_SPLINE_CURVE(2,(#514,#515,#516),.UNSPECIFIED.,.F.,.F.)
B_SPLINE_CURVE_WITH_KNOTS((3,3),(0.,0.28300373973662),.UNSPECIFIED.)
CURVE()
GEOMETRIC_REPRESENTATION_ITEM()
RATIONAL_B_SPLINE_CURVE((1.,1.00113830853502,1.))
REPRESENTATION_ITEM('')
);
#25=(
BOUNDED_CURVE()
B_SPLINE_CURVE(2,(#568,#569,#570),.UNSPECIFIED.,.F.,.F.)
B_SPLINE_CURVE_WITH_KNOTS((3,3),(0.,0.28300373973662),.UNSPECIFIED.)
CURVE()
GEOMETRIC_REPRESENTATION_ITEM()
RATIONAL_B_SPLINE_CURVE((1.,1.00113830853502,1.))
REPRESENTATION_ITEM('')
);
#26=LINE('',#489,#40);
#27=LINE('',#491,#41);
#28=LINE('',#493,#42);
#29=LINE('',#494,#43);
#30=LINE('',#504,#44);
#31=LINE('',#507,#45);
#32=LINE('',#510,#46);
#33=LINE('',#512,#47);
#34=LINE('',#518,#48);
#35=LINE('',#520,#49);
#36=LINE('',#542,#50);
#37=LINE('',#564,#51);
#38=LINE('',#566,#52);
#39=LINE('',#571,#53);
#40=VECTOR('',#394,4.);
#41=VECTOR('',#395,45.3541618817943);
#42=VECTOR('',#396,4.);
#43=VECTOR('',#397,45.3541618817943);
#44=VECTOR('',#408,9.76814552876113);
#45=VECTOR('',#411,9.76814552876113);
#46=VECTOR('',#414,1.5);
#47=VECTOR('',#415,3.);
#48=VECTOR('',#416,7.7658689083634);
#49=VECTOR('',#417,1.5);
#50=VECTOR('',#420,1.5);
#51=VECTOR('',#421,1.5);
#52=VECTOR('',#422,7.7658689083634);
#53=VECTOR('',#423,3.);
#54=PLANE('',#340);
#55=PLANE('',#341);
#56=PLANE('',#344);
#57=PLANE('',#347);
#58=PLANE('',#348);
#59=PLANE('',#357);
#60=PLANE('',#360);
#61=PLANE('',#369);
#62=FACE_BOUND('',#100,.T.);
#63=FACE_BOUND('',#102,.T.);
#64=FACE_BOUND('',#104,.T.);
#65=FACE_BOUND('',#106,.T.);
#66=FACE_BOUND('',#107,.T.);
#67=FACE_BOUND('',#108,.T.);
#68=FACE_BOUND('',#109,.T.);
#69=FACE_BOUND('',#110,.T.);
#70=FACE_BOUND('',#115,.T.);
#71=FACE_BOUND('',#118,.T.);
#72=FACE_BOUND('',#120,.T.);
#73=FACE_BOUND('',#122,.T.);
#74=FACE_BOUND('',#127,.T.);
#75=FACE_BOUND('',#129,.T.);
#76=FACE_BOUND('',#130,.T.);
#77=FACE_BOUND('',#131,.T.);
#78=FACE_BOUND('',#132,.T.);
#79=FACE_BOUND('',#133,.T.);
#80=FACE_BOUND('',#134,.T.);
#81=FACE_OUTER_BOUND('',#99,.T.);
#82=FACE_OUTER_BOUND('',#101,.T.);
#83=FACE_OUTER_BOUND('',#103,.T.);
#84=FACE_OUTER_BOUND('',#105,.T.);
#85=FACE_OUTER_BOUND('',#111,.T.);
#86=FACE_OUTER_BOUND('',#112,.T.);
#87=FACE_OUTER_BOUND('',#113,.T.);
#88=FACE_OUTER_BOUND('',#114,.T.);
#89=FACE_OUTER_BOUND('',#116,.T.);
#90=FACE_OUTER_BOUND('',#117,.T.);
#91=FACE_OUTER_BOUND('',#119,.T.);
#92=FACE_OUTER_BOUND('',#121,.T.);
#93=FACE_OUTER_BOUND('',#123,.T.);
#94=FACE_OUTER_BOUND('',#124,.T.);
#95=FACE_OUTER_BOUND('',#125,.T.);
#96=FACE_OUTER_BOUND('',#126,.T.);
#97=FACE_OUTER_BOUND('',#128,.T.);
#98=FACE_OUTER_BOUND('',#135,.T.);
#99=EDGE_LOOP('',(#226));
#100=EDGE_LOOP('',(#227));
#101=EDGE_LOOP('',(#228));
#102=EDGE_LOOP('',(#229));
#103=EDGE_LOOP('',(#230));
#104=EDGE_LOOP('',(#231));
#105=EDGE_LOOP('',(#232,#233,#234,#235));
#106=EDGE_LOOP('',(#236));
#107=EDGE_LOOP('',(#237));
#108=EDGE_LOOP('',(#238));
#109=EDGE_LOOP('',(#239,#240));
#110=EDGE_LOOP('',(#241));
#111=EDGE_LOOP('',(#242,#243,#244,#245));
#112=EDGE_LOOP('',(#246,#247,#248,#249,#250,#251,#252));
#113=EDGE_LOOP('',(#253,#254,#255,#256,#257,#258,#259));
#114=EDGE_LOOP('',(#260,#261,#262,#263));
#115=EDGE_LOOP('',(#264));
#116=EDGE_LOOP('',(#265,#266,#267,#268));
#117=EDGE_LOOP('',(#269));
#118=EDGE_LOOP('',(#270));
#119=EDGE_LOOP('',(#271));
#120=EDGE_LOOP('',(#272));
#121=EDGE_LOOP('',(#273,#274,#275,#276));
#122=EDGE_LOOP('',(#277));
#123=EDGE_LOOP('',(#278,#279,#280,#281));
#124=EDGE_LOOP('',(#282,#283,#284,#285));
#125=EDGE_LOOP('',(#286,#287,#288,#289));
#126=EDGE_LOOP('',(#290));
#127=EDGE_LOOP('',(#291));
#128=EDGE_LOOP('',(#292));
#129=EDGE_LOOP('',(#293));
#130=EDGE_LOOP('',(#294));
#131=EDGE_LOOP('',(#295));
#132=EDGE_LOOP('',(#296));
#133=EDGE_LOOP('',(#297,#298));
#134=EDGE_LOOP('',(#299));
#135=EDGE_LOOP('',(#300,#301,#302,#303));
#136=CIRCLE('',#332,2.00000000000001);
#137=CIRCLE('',#333,6.00000000000001);
#138=CIRCLE('',#335,2.00000000000001);
#139=CIRCLE('',#336,6.00000000000001);
#140=CIRCLE('',#338,2.);
#141=CIRCLE('',#339,6.);
#142=CIRCLE('',#342,34.5);
#143=CIRCLE('',#343,21.5);
#144=CIRCLE('',#345,12.25);
#145=CIRCLE('',#346,22.);
#146=CIRCLE('',#350,12.25);
#147=CIRCLE('',#351,12.25);
#148=CIRCLE('',#353,20.);
#149=CIRCLE('',#354,22.);
#150=CIRCLE('',#356,21.5);
#151=CIRCLE('',#358,22.);
#152=CIRCLE('',#361,12.25);
#153=CIRCLE('',#363,12.25);
#154=CIRCLE('',#366,12.25);
#155=CIRCLE('',#368,12.25);
#156=CIRCLE('',#370,34.5);
#157=VERTEX_POINT('',#472);
#158=VERTEX_POINT('',#474);
#159=VERTEX_POINT('',#477);
#160=VERTEX_POINT('',#479);
#161=VERTEX_POINT('',#482);
#162=VERTEX_POINT('',#484);
#163=VERTEX_POINT('',#487);
#164=VERTEX_POINT('',#488);
#165=VERTEX_POINT('',#490);
#166=VERTEX_POINT('',#492);
#167=VERTEX_POINT('',#497);
#168=VERTEX_POINT('',#500);
#169=VERTEX_POINT('',#501);
#170=VERTEX_POINT('',#503);
#171=VERTEX_POINT('',#505);
#172=VERTEX_POINT('',#509);
#173=VERTEX_POINT('',#511);
#174=VERTEX_POINT('',#513);
#175=VERTEX_POINT('',#517);
#176=VERTEX_POINT('',#519);
#177=VERTEX_POINT('',#541);
#178=VERTEX_POINT('',#543);
#179=VERTEX_POINT('',#563);
#180=VERTEX_POINT('',#565);
#181=VERTEX_POINT('',#567);
#182=VERTEX_POINT('',#574);
#183=VERTEX_POINT('',#580);
#184=VERTEX_POINT('',#583);
#185=VERTEX_POINT('',#592);
#186=VERTEX_POINT('',#595);
#187=EDGE_CURVE('',#157,#157,#136,.T.);
#188=EDGE_CURVE('',#158,#158,#137,.T.);
#189=EDGE_CURVE('',#159,#159,#138,.T.);
#190=EDGE_CURVE('',#160,#160,#139,.T.);
#191=EDGE_CURVE('',#161,#161,#140,.T.);
#192=EDGE_CURVE('',#162,#162,#141,.T.);
#193=EDGE_CURVE('',#163,#164,#26,.T.);
#194=EDGE_CURVE('',#165,#163,#27,.T.);
#195=EDGE_CURVE('',#166,#165,#28,.T.);
#196=EDGE_CURVE('',#164,#166,#29,.T.);
#197=EDGE_CURVE('',#166,#164,#142,.T.);
#198=EDGE_CURVE('',#167,#167,#143,.T.);
#199=EDGE_CURVE('',#168,#169,#144,.T.);
#200=EDGE_CURVE('',#168,#170,#30,.T.);
#201=EDGE_CURVE('',#171,#170,#145,.T.);
#202=EDGE_CURVE('',#171,#169,#31,.T.);
#203=EDGE_CURVE('',#169,#172,#32,.T.);
#204=EDGE_CURVE('',#173,#171,#33,.T.);
#205=EDGE_CURVE('',#174,#173,#24,.T.);
#206=EDGE_CURVE('',#175,#174,#34,.T.);
#207=EDGE_CURVE('',#176,#175,#35,.T.);
#208=EDGE_CURVE('',#172,#176,#22,.T.);
#209=EDGE_CURVE('',#177,#168,#36,.T.);
#210=EDGE_CURVE('',#178,#177,#23,.T.);
#211=EDGE_CURVE('',#179,#178,#37,.T.);
#212=EDGE_CURVE('',#180,#179,#38,.T.);
#213=EDGE_CURVE('',#181,#180,#25,.T.);
#214=EDGE_CURVE('',#170,#181,#39,.T.);
#215=EDGE_CURVE('',#172,#177,#146,.T.);
#216=EDGE_CURVE('',#182,#182,#147,.T.);
#217=EDGE_CURVE('',#174,#180,#148,.T.);
#218=EDGE_CURVE('',#173,#181,#149,.T.);
#219=EDGE_CURVE('',#183,#183,#150,.T.);
#220=EDGE_CURVE('',#184,#184,#151,.T.);
#221=EDGE_CURVE('',#175,#179,#152,.T.);
#222=EDGE_CURVE('',#176,#178,#153,.T.);
#223=EDGE_CURVE('',#185,#185,#154,.T.);
#224=EDGE_CURVE('',#186,#186,#155,.T.);
#225=EDGE_CURVE('',#165,#163,#156,.T.);
#226=ORIENTED_EDGE('',*,*,#187,.F.);
#227=ORIENTED_EDGE('',*,*,#188,.F.);
#228=ORIENTED_EDGE('',*,*,#189,.F.);
#229=ORIENTED_EDGE('',*,*,#190,.F.);
#230=ORIENTED_EDGE('',*,*,#191,.F.);
#231=ORIENTED_EDGE('',*,*,#192,.F.);
#232=ORIENTED_EDGE('',*,*,#193,.F.);
#233=ORIENTED_EDGE('',*,*,#194,.F.);
#234=ORIENTED_EDGE('',*,*,#195,.F.);
#235=ORIENTED_EDGE('',*,*,#196,.F.);
#236=ORIENTED_EDGE('',*,*,#187,.T.);
#237=ORIENTED_EDGE('',*,*,#189,.T.);
#238=ORIENTED_EDGE('',*,*,#191,.T.);
#239=ORIENTED_EDGE('',*,*,#196,.T.);
#240=ORIENTED_EDGE('',*,*,#197,.T.);
#241=ORIENTED_EDGE('',*,*,#198,.F.);
#242=ORIENTED_EDGE('',*,*,#199,.F.);
#243=ORIENTED_EDGE('',*,*,#200,.T.);
#244=ORIENTED_EDGE('',*,*,#201,.F.);
#245=ORIENTED_EDGE('',*,*,#202,.T.);
#246=ORIENTED_EDGE('',*,*,#203,.F.);
#247=ORIENTED_EDGE('',*,*,#202,.F.);
#248=ORIENTED_EDGE('',*,*,#204,.F.);
#249=ORIENTED_EDGE('',*,*,#205,.F.);
#250=ORIENTED_EDGE('',*,*,#206,.F.);
#251=ORIENTED_EDGE('',*,*,#207,.F.);
#252=ORIENTED_EDGE('',*,*,#208,.F.);
#253=ORIENTED_EDGE('',*,*,#209,.F.);
#254=ORIENTED_EDGE('',*,*,#210,.F.);
#255=ORIENTED_EDGE('',*,*,#211,.F.);
#256=ORIENTED_EDGE('',*,*,#212,.F.);
#257=ORIENTED_EDGE('',*,*,#213,.F.);
#258=ORIENTED_EDGE('',*,*,#214,.F.);
#259=ORIENTED_EDGE('',*,*,#200,.F.);
#260=ORIENTED_EDGE('',*,*,#209,.T.);
#261=ORIENTED_EDGE('',*,*,#199,.T.);
#262=ORIENTED_EDGE('',*,*,#203,.T.);
#263=ORIENTED_EDGE('',*,*,#215,.T.);
#264=ORIENTED_EDGE('',*,*,#216,.F.);
#265=ORIENTED_EDGE('',*,*,#213,.T.);
#266=ORIENTED_EDGE('',*,*,#217,.F.);
#267=ORIENTED_EDGE('',*,*,#205,.T.);
#268=ORIENTED_EDGE('',*,*,#218,.T.);
#269=ORIENTED_EDGE('',*,*,#219,.F.);
#270=ORIENTED_EDGE('',*,*,#198,.T.);
#271=ORIENTED_EDGE('',*,*,#220,.F.);
#272=ORIENTED_EDGE('',*,*,#219,.T.);
#273=ORIENTED_EDGE('',*,*,#214,.T.);
#274=ORIENTED_EDGE('',*,*,#218,.F.);
#275=ORIENTED_EDGE('',*,*,#204,.T.);
#276=ORIENTED_EDGE('',*,*,#201,.T.);
#277=ORIENTED_EDGE('',*,*,#220,.T.);
#278=ORIENTED_EDGE('',*,*,#212,.T.);
#279=ORIENTED_EDGE('',*,*,#221,.F.);
#280=ORIENTED_EDGE('',*,*,#206,.T.);
#281=ORIENTED_EDGE('',*,*,#217,.T.);
#282=ORIENTED_EDGE('',*,*,#211,.T.);
#283=ORIENTED_EDGE('',*,*,#222,.F.);
#284=ORIENTED_EDGE('',*,*,#207,.T.);
#285=ORIENTED_EDGE('',*,*,#221,.T.);
#286=ORIENTED_EDGE('',*,*,#210,.T.);
#287=ORIENTED_EDGE('',*,*,#215,.F.);
#288=ORIENTED_EDGE('',*,*,#208,.T.);
#289=ORIENTED_EDGE('',*,*,#222,.T.);
#290=ORIENTED_EDGE('',*,*,#223,.F.);
#291=ORIENTED_EDGE('',*,*,#216,.T.);
#292=ORIENTED_EDGE('',*,*,#224,.F.);
#293=ORIENTED_EDGE('',*,*,#223,.T.);
#294=ORIENTED_EDGE('',*,*,#188,.T.);
#295=ORIENTED_EDGE('',*,*,#190,.T.);
#296=ORIENTED_EDGE('',*,*,#192,.T.);
#297=ORIENTED_EDGE('',*,*,#194,.T.);
#298=ORIENTED_EDGE('',*,*,#225,.F.);
#299=ORIENTED_EDGE('',*,*,#224,.T.);
#300=ORIENTED_EDGE('',*,*,#193,.T.);
#301=ORIENTED_EDGE('',*,*,#197,.F.);
#302=ORIENTED_EDGE('',*,*,#195,.T.);
#303=ORIENTED_EDGE('',*,*,#225,.T.);
#304=CONICAL_SURFACE('',#331,3.75,45.);
#305=CONICAL_SURFACE('',#334,3.75,45.);
#306=CONICAL_SURFACE('',#337,3.75,45.);
#307=CONICAL_SURFACE('',#352,21.,45.);
#308=ADVANCED_FACE('',(#81,#62),#304,.F.);
#309=ADVANCED_FACE('',(#82,#63),#305,.F.);
#310=ADVANCED_FACE('',(#83,#64),#306,.F.);
#311=ADVANCED_FACE('',(#84),#54,.F.);
#312=ADVANCED_FACE('',(#65,#66,#67,#68,#69),#55,.T.);
#313=ADVANCED_FACE('',(#85),#56,.F.);
#314=ADVANCED_FACE('',(#86),#57,.F.);
#315=ADVANCED_FACE('',(#87),#58,.F.);
#316=ADVANCED_FACE('',(#88,#70),#16,.F.);
#317=ADVANCED_FACE('',(#89),#307,.T.);
#318=ADVANCED_FACE('',(#90,#71),#17,.T.);
#319=ADVANCED_FACE('',(#91,#72),#59,.T.);
#320=ADVANCED_FACE('',(#92,#73),#18,.T.);
#321=ADVANCED_FACE('',(#93),#60,.T.);
#322=ADVANCED_FACE('',(#94),#19,.F.);
#323=ADVANCED_FACE('',(#95),#14,.F.);
#324=ADVANCED_FACE('',(#96,#74),#15,.F.);
#325=ADVANCED_FACE('',(#97,#75),#20,.F.);
#326=ADVANCED_FACE('',(#76,#77,#78,#79,#80),#61,.T.);
#327=ADVANCED_FACE('',(#98),#21,.T.);
#328=CLOSED_SHELL('',(#308,#309,#310,#311,#312,#313,#314,#315,#316,#317,
#318,#319,#320,#321,#322,#323,#324,#325,#326,#327));
#329=MANIFOLD_SOLID_BREP('Solid1',#328);
#330=AXIS2_PLACEMENT_3D('placement',#470,#372,#373);
#331=AXIS2_PLACEMENT_3D('',#471,#374,#375);
#332=AXIS2_PLACEMENT_3D('',#473,#376,#377);
#333=AXIS2_PLACEMENT_3D('',#475,#378,#379);
#334=AXIS2_PLACEMENT_3D('',#476,#380,#381);
#335=AXIS2_PLACEMENT_3D('',#478,#382,#383);
#336=AXIS2_PLACEMENT_3D('',#480,#384,#385);
#337=AXIS2_PLACEMENT_3D('',#481,#386,#387);
#338=AXIS2_PLACEMENT_3D('',#483,#388,#389);
#339=AXIS2_PLACEMENT_3D('',#485,#390,#391);
#340=AXIS2_PLACEMENT_3D('',#486,#392,#393);
#341=AXIS2_PLACEMENT_3D('',#495,#398,#399);
#342=AXIS2_PLACEMENT_3D('',#496,#400,#401);
#343=AXIS2_PLACEMENT_3D('',#498,#402,#403);
#344=AXIS2_PLACEMENT_3D('',#499,#404,#405);
#345=AXIS2_PLACEMENT_3D('',#502,#406,#407);
#346=AXIS2_PLACEMENT_3D('',#506,#409,#410);
#347=AXIS2_PLACEMENT_3D('',#508,#412,#413);
#348=AXIS2_PLACEMENT_3D('',#540,#418,#419);
#349=AXIS2_PLACEMENT_3D('',#572,#424,#425);
#350=AXIS2_PLACEMENT_3D('',#573,#426,#427);
#351=AXIS2_PLACEMENT_3D('',#575,#428,#429);
#352=AXIS2_PLACEMENT_3D('',#576,#430,#431);
#353=AXIS2_PLACEMENT_3D('',#577,#432,#433);
#354=AXIS2_PLACEMENT_3D('',#578,#434,#435);
#355=AXIS2_PLACEMENT_3D('',#579,#436,#437);
#356=AXIS2_PLACEMENT_3D('',#581,#438,#439);
#357=AXIS2_PLACEMENT_3D('',#582,#440,#441);
#358=AXIS2_PLACEMENT_3D('',#584,#442,#443);
#359=AXIS2_PLACEMENT_3D('',#585,#444,#445);
#360=AXIS2_PLACEMENT_3D('',#586,#446,#447);
#361=AXIS2_PLACEMENT_3D('',#587,#448,#449);
#362=AXIS2_PLACEMENT_3D('',#588,#450,#451);
#363=AXIS2_PLACEMENT_3D('',#589,#452,#453);
#364=AXIS2_PLACEMENT_3D('',#590,#454,#455);
#365=AXIS2_PLACEMENT_3D('',#591,#456,#457);
#366=AXIS2_PLACEMENT_3D('',#593,#458,#459);
#367=AXIS2_PLACEMENT_3D('',#594,#460,#461);
#368=AXIS2_PLACEMENT_3D('',#596,#462,#463);
#369=AXIS2_PLACEMENT_3D('',#597,#464,#465);
#370=AXIS2_PLACEMENT_3D('',#598,#466,#467);
#371=AXIS2_PLACEMENT_3D('',#599,#468,#469);
#372=DIRECTION('axis',(0.,0.,1.));
#373=DIRECTION('refdir',(1.,0.,0.));
#374=DIRECTION('center_axis',(3.0257663781566E-016,1.,1.74692703293363E-016));
#375=DIRECTION('ref_axis',(-0.5,3.0257663781566E-016,-0.866025403784438));
#376=DIRECTION('center_axis',(0.,1.,0.));
#377=DIRECTION('ref_axis',(-0.500000000000001,3.0257663781566E-016,-0.866025403784438));
#378=DIRECTION('center_axis',(0.,-1.,0.));
#379=DIRECTION('ref_axis',(-0.500000000000001,3.0257663781566E-016,-0.866025403784438));
#380=DIRECTION('center_axis',(3.0257663781566E-016,1.,-1.74692703293363E-016));
#381=DIRECTION('ref_axis',(-0.5,3.0257663781566E-016,0.866025403784439));
#382=DIRECTION('center_axis',(0.,1.,0.));
#383=DIRECTION('ref_axis',(-0.5,3.0257663781566E-016,0.866025403784439));
#384=DIRECTION('center_axis',(0.,-1.,0.));
#385=DIRECTION('ref_axis',(-0.5,3.0257663781566E-016,0.866025403784439));
#386=DIRECTION('center_axis',(0.,1.,0.));
#387=DIRECTION('ref_axis',(1.,0.,0.));
#388=DIRECTION('center_axis',(0.,1.,0.));
#389=DIRECTION('ref_axis',(1.,0.,0.));
#390=DIRECTION('center_axis',(0.,-1.,0.));
#391=DIRECTION('ref_axis',(1.,0.,0.));
#392=DIRECTION('center_axis',(0.,0.,1.));
#393=DIRECTION('ref_axis',(1.,0.,0.));
#394=DIRECTION('',(0.,-1.,0.));
#395=DIRECTION('',(-1.,0.,0.));
#396=DIRECTION('',(0.,1.,0.));
#397=DIRECTION('',(1.,0.,0.));
#398=DIRECTION('center_axis',(0.,-1.,0.));
#399=DIRECTION('ref_axis',(0.,0.,-1.));
#400=DIRECTION('center_axis',(0.,-1.,0.));
#401=DIRECTION('ref_axis',(1.,-2.01717758543773E-016,0.));
#402=DIRECTION('center_axis',(0.,-1.,0.));
#403=DIRECTION('ref_axis',(1.,-2.01717758543773E-016,0.));
#404=DIRECTION('center_axis',(0.,1.,0.));
#405=DIRECTION('ref_axis',(0.,0.,1.));
#406=DIRECTION('center_axis',(0.,-1.,0.));
#407=DIRECTION('ref_axis',(1.,-2.01717758543773E-016,0.));
#408=DIRECTION('',(1.89309146961977E-016,0.,-1.));
#409=DIRECTION('center_axis',(0.,1.,0.));
#410=DIRECTION('ref_axis',(1.,-2.01717758543773E-016,0.));
#411=DIRECTION('',(1.89309146961977E-016,0.,1.));
#412=DIRECTION('center_axis',(1.,0.,-1.89309146961977E-016));
#413=DIRECTION('ref_axis',(-1.88737914186277E-016,0.,-1.));
#414=DIRECTION('',(0.,-1.,0.));
#415=DIRECTION('',(0.,1.,0.));
#416=DIRECTION('',(-1.89309146961977E-016,0.,-1.));
#417=DIRECTION('',(0.,-1.,0.));
#418=DIRECTION('center_axis',(-1.,0.,-1.89309146961977E-016));
#419=DIRECTION('ref_axis',(-1.99840144432528E-016,0.,1.));
#420=DIRECTION('',(0.,1.,0.));
#421=DIRECTION('',(0.,1.,0.));
#422=DIRECTION('',(-1.89309146961977E-016,0.,1.));
#423=DIRECTION('',(0.,-1.,0.));
#424=DIRECTION('center_axis',(0.,-1.,0.));
#425=DIRECTION('ref_axis',(1.,-2.01717758543773E-016,0.));
#426=DIRECTION('center_axis',(0.,-1.,0.));
#427=DIRECTION('ref_axis',(1.,-2.01717758543773E-016,0.));
#428=DIRECTION('center_axis',(0.,-1.,0.));
#429=DIRECTION('ref_axis',(1.,-2.01717758543773E-016,0.));
#430=DIRECTION('center_axis',(0.,1.,0.));
#431=DIRECTION('ref_axis',(1.,-2.01717758543773E-016,0.));
#432=DIRECTION('center_axis',(0.,-1.,0.));
#433=DIRECTION('ref_axis',(1.,-2.01717758543773E-016,0.));
#434=DIRECTION('center_axis',(0.,-1.,0.));
#435=DIRECTION('ref_axis',(1.,-2.01717758543773E-016,0.));
#436=DIRECTION('center_axis',(0.,-1.,0.));
#437=DIRECTION('ref_axis',(1.,-2.01717758543773E-016,0.));
#438=DIRECTION('center_axis',(0.,-1.,0.));
#439=DIRECTION('ref_axis',(1.,-2.01717758543773E-016,0.));
#440=DIRECTION('center_axis',(0.,1.,0.));
#441=DIRECTION('ref_axis',(0.,0.,1.));
#442=DIRECTION('center_axis',(0.,-1.,0.));
#443=DIRECTION('ref_axis',(1.,-2.01717758543773E-016,0.));
#444=DIRECTION('center_axis',(0.,-1.,0.));
#445=DIRECTION('ref_axis',(1.,-2.01717758543773E-016,0.));
#446=DIRECTION('center_axis',(0.,-1.,0.));
#447=DIRECTION('ref_axis',(0.,0.,-1.));
#448=DIRECTION('center_axis',(0.,-1.,0.));
#449=DIRECTION('ref_axis',(1.,-2.01717758543773E-016,0.));
#450=DIRECTION('center_axis',(0.,-1.,0.));
#451=DIRECTION('ref_axis',(1.,-2.01717758543773E-016,0.));
#452=DIRECTION('center_axis',(0.,-1.,0.));
#453=DIRECTION('ref_axis',(1.,-2.01717758543773E-016,0.));
#454=DIRECTION('center_axis',(0.,-1.,0.));
#455=DIRECTION('ref_axis',(0.,0.,-1.));
#456=DIRECTION('center_axis',(0.,-1.,0.));
#457=DIRECTION('ref_axis',(0.,0.,-1.));
#458=DIRECTION('center_axis',(0.,-1.,0.));
#459=DIRECTION('ref_axis',(1.,-2.01717758543773E-016,0.));
#460=DIRECTION('center_axis',(0.,-1.,0.));
#461=DIRECTION('ref_axis',(1.,-2.01717758543773E-016,0.));
#462=DIRECTION('center_axis',(0.,-1.,0.));
#463=DIRECTION('ref_axis',(1.,-2.01717758543773E-016,0.));
#464=DIRECTION('center_axis',(0.,1.,0.));
#465=DIRECTION('ref_axis',(0.,0.,1.));
#466=DIRECTION('center_axis',(0.,-1.,0.));
#467=DIRECTION('ref_axis',(1.,-2.01717758543773E-016,0.));
#468=DIRECTION('center_axis',(0.,-1.,0.));
#469=DIRECTION('ref_axis',(1.,-2.01717758543773E-016,0.));
#470=CARTESIAN_POINT('',(0.,0.,0.));
#471=CARTESIAN_POINT('Origin',(24.2487113059643,32.55,-14.));
#472=CARTESIAN_POINT('',(25.2487113059643,30.8,-12.2679491924311));
#473=CARTESIAN_POINT('Origin',(24.2487113059643,30.8,-14.));
#474=CARTESIAN_POINT('',(21.2487113059643,34.8,-19.1961524227066));
#475=CARTESIAN_POINT('Origin',(24.2487113059643,34.8,-14.));
#476=CARTESIAN_POINT('Origin',(-24.2487113059643,32.55,-14.));
#477=CARTESIAN_POINT('',(-23.2487113059643,30.8,-15.7320508075689));
#478=CARTESIAN_POINT('Origin',(-24.2487113059643,30.8,-14.));
#479=CARTESIAN_POINT('',(-27.2487113059643,34.8,-8.80384757729336));
#480=CARTESIAN_POINT('Origin',(-24.2487113059643,34.8,-14.));
#481=CARTESIAN_POINT('Origin',(0.,32.55,28.));
#482=CARTESIAN_POINT('',(-2.,30.8,28.));
#483=CARTESIAN_POINT('Origin',(0.,30.8,28.));
#484=CARTESIAN_POINT('',(6.,34.8,28.));
#485=CARTESIAN_POINT('Origin',(0.,34.8,28.));
#486=CARTESIAN_POINT('Origin',(25.1462231130371,30.8,-26.));
#487=CARTESIAN_POINT('',(-22.6770809408971,34.8,-26.));
#488=CARTESIAN_POINT('',(-22.6770809408971,30.8,-26.));
#489=CARTESIAN_POINT('',(-22.6770809408971,32.8,-26.));
#490=CARTESIAN_POINT('',(22.6770809408971,34.8,-26.));
#491=CARTESIAN_POINT('',(24.2606115565186,34.8,-26.));
#492=CARTESIAN_POINT('',(22.6770809408971,30.8,-26.));
#493=CARTESIAN_POINT('',(22.6770809408971,32.8,-26.));
#494=CARTESIAN_POINT('',(23.4481115565186,30.8,-26.));
#495=CARTESIAN_POINT('Origin',(21.75,30.8,0.));
#496=CARTESIAN_POINT('Origin',(0.,30.8,0.));
#497=CARTESIAN_POINT('',(21.5,30.8,0.));
#498=CARTESIAN_POINT('Origin',(0.,30.8,0.));
#499=CARTESIAN_POINT('Origin',(0.,5.,-17.1348202636221));
#500=CARTESIAN_POINT('',(-1.,5.,-12.2091154470748));
#501=CARTESIAN_POINT('',(1.,5.,-12.2091154470748));
#502=CARTESIAN_POINT('Origin',(0.,5.,0.));
#503=CARTESIAN_POINT('',(-1.,5.,-21.9772609758359));
#504=CARTESIAN_POINT('',(-1.,5.,-23.7324988372526));
#505=CARTESIAN_POINT('',(1.,5.,-21.9772609758359));
#506=CARTESIAN_POINT('Origin',(0.,5.,0.));
#507=CARTESIAN_POINT('',(1.,5.,-10.5371416899916));
#508=CARTESIAN_POINT('Origin',(1.,0.,-23.7324988372526));
#509=CARTESIAN_POINT('',(1.,3.5,-12.2091154470748));
#510=CARTESIAN_POINT('',(1.,17.4,-12.2091154470748));
#511=CARTESIAN_POINT('',(1.,2.,-21.9772609758359));
#512=CARTESIAN_POINT('',(1.,15.15,-21.9772609758359));
#513=CARTESIAN_POINT('',(1.,1.38777878078145E-016,-19.9749843554382));
#514=CARTESIAN_POINT('Ctrl Pts',(1.,1.38777878078145E-016,-19.9749843554382));
#515=CARTESIAN_POINT('Ctrl Pts',(1.,0.95227249828085,-20.9284494308885));
#516=CARTESIAN_POINT('Ctrl Pts',(1.,2.00000000000001,-21.9772609758359));
#517=CARTESIAN_POINT('',(1.,0.,-12.2091154470748));
#518=CARTESIAN_POINT('',(1.,0.,-11.8662494186263));
#519=CARTESIAN_POINT('',(1.,1.5,-12.2091154470748));
#520=CARTESIAN_POINT('',(1.,0.750000000000002,-12.2091154470748));
#521=CARTESIAN_POINT('Ctrl Pts',(1.,3.5,-12.2091154470748));
#522=CARTESIAN_POINT('Ctrl Pts',(1.,3.5,-12.3330586646108));
#523=CARTESIAN_POINT('Ctrl Pts',(1.,3.47105474174259,-12.4789467673257));
#524=CARTESIAN_POINT('Ctrl Pts',(1.,3.37642539554276,-12.7078111508105));
#525=CARTESIAN_POINT('Ctrl Pts',(1.,3.29407835250204,-12.8313345978906));
#526=CARTESIAN_POINT('Ctrl Pts',(1.,3.11944455081062,-13.0062783793364));
#527=CARTESIAN_POINT('Ctrl Pts',(1.,2.99632711702942,-13.0887205429637));
#528=CARTESIAN_POINT('Ctrl Pts',(1.,2.76839544709666,-13.1832886041566));
#529=CARTESIAN_POINT('Ctrl Pts',(1.,2.62329533459046,-13.2122102617238));
#530=CARTESIAN_POINT('Ctrl Pts',(1.,2.5,-13.2122102617238));
#531=CARTESIAN_POINT('Ctrl Pts',(1.,2.37670466540954,-13.2122102617238));
#532=CARTESIAN_POINT('Ctrl Pts',(1.,2.23160455290334,-13.1832886041566));
#533=CARTESIAN_POINT('Ctrl Pts',(1.,2.00367288297058,-13.0887205429637));
#534=CARTESIAN_POINT('Ctrl Pts',(1.,1.88055544918938,-13.0062783793364));
#535=CARTESIAN_POINT('Ctrl Pts',(1.,1.70592164749796,-12.8313345978906));
#536=CARTESIAN_POINT('Ctrl Pts',(1.,1.62357460445724,-12.7078111508105));
#537=CARTESIAN_POINT('Ctrl Pts',(1.,1.52894525825741,-12.4789467673258));
#538=CARTESIAN_POINT('Ctrl Pts',(1.,1.5,-12.3330586646108));
#539=CARTESIAN_POINT('Ctrl Pts',(1.,1.5,-12.2091154470748));
#540=CARTESIAN_POINT('Origin',(-1.,0.,-10.5371416899916));
#541=CARTESIAN_POINT('',(-1.,3.5,-12.2091154470748));
#542=CARTESIAN_POINT('',(-1.,17.4,-12.2091154470748));
#543=CARTESIAN_POINT('',(-1.,1.5,-12.2091154470748));
#544=CARTESIAN_POINT('Ctrl Pts',(-1.,1.5,-12.2091154470748));
#545=CARTESIAN_POINT('Ctrl Pts',(-1.,1.5,-12.3330586646108));
#546=CARTESIAN_POINT('Ctrl Pts',(-1.,1.52894525825741,-12.4789467673258));
#547=CARTESIAN_POINT('Ctrl Pts',(-1.,1.62357460445724,-12.7078111508105));
#548=CARTESIAN_POINT('Ctrl Pts',(-1.,1.70592164749796,-12.8313345978906));
#549=CARTESIAN_POINT('Ctrl Pts',(-1.,1.88055544918938,-13.0062783793364));
#550=CARTESIAN_POINT('Ctrl Pts',(-1.,2.00367288297058,-13.0887205429637));
#551=CARTESIAN_POINT('Ctrl Pts',(-1.,2.23160455290334,-13.1832886041566));
#552=CARTESIAN_POINT('Ctrl Pts',(-1.,2.37670466540954,-13.2122102617238));
#553=CARTESIAN_POINT('Ctrl Pts',(-1.,2.5,-13.2122102617238));
#554=CARTESIAN_POINT('Ctrl Pts',(-1.,2.62329533459046,-13.2122102617238));
#555=CARTESIAN_POINT('Ctrl Pts',(-1.,2.76839544709666,-13.1832886041566));
#556=CARTESIAN_POINT('Ctrl Pts',(-1.,2.99632711702942,-13.0887205429637));
#557=CARTESIAN_POINT('Ctrl Pts',(-1.,3.11944455081062,-13.0062783793364));
#558=CARTESIAN_POINT('Ctrl Pts',(-1.,3.29407835250204,-12.8313345978906));
#559=CARTESIAN_POINT('Ctrl Pts',(-1.,3.37642539554276,-12.7078111508105));
#560=CARTESIAN_POINT('Ctrl Pts',(-1.,3.47105474174259,-12.4789467673258));
#561=CARTESIAN_POINT('Ctrl Pts',(-1.,3.5,-12.3330586646108));
#562=CARTESIAN_POINT('Ctrl Pts',(-1.,3.5,-12.2091154470748));
#563=CARTESIAN_POINT('',(-1.,0.,-12.2091154470748));
#564=CARTESIAN_POINT('',(-1.,0.750000000000002,-12.2091154470748));
#565=CARTESIAN_POINT('',(-1.,1.38777878078145E-016,-19.9749843554382));
#566=CARTESIAN_POINT('',(-1.,0.,-5.26857084499579));
#567=CARTESIAN_POINT('',(-1.,2.,-21.9772609758359));
#568=CARTESIAN_POINT('Ctrl Pts',(-1.,2.00000000000001,-21.9772609758359));
#569=CARTESIAN_POINT('Ctrl Pts',(-1.,0.95227249828085,-20.9284494308885));
#570=CARTESIAN_POINT('Ctrl Pts',(-1.,1.38777878078145E-016,-19.9749843554382));
#571=CARTESIAN_POINT('',(-1.,15.15,-21.9772609758359));
#572=CARTESIAN_POINT('Origin',(0.,17.4,0.));
#573=CARTESIAN_POINT('Origin',(0.,3.5,0.));
#574=CARTESIAN_POINT('',(12.25,31.3,0.));
#575=CARTESIAN_POINT('Origin',(0.,31.3,0.));
#576=CARTESIAN_POINT('Origin',(0.,1.,0.));
#577=CARTESIAN_POINT('Origin',(0.,0.,0.));
#578=CARTESIAN_POINT('Origin',(0.,2.,0.));
#579=CARTESIAN_POINT('Origin',(0.,29.55,0.));
#580=CARTESIAN_POINT('',(21.5,28.3,0.));
#581=CARTESIAN_POINT('Origin',(0.,28.3,0.));
#582=CARTESIAN_POINT('Origin',(21.75,28.3,0.));
#583=CARTESIAN_POINT('',(22.,28.3,0.));
#584=CARTESIAN_POINT('Origin',(0.,28.3,0.));
#585=CARTESIAN_POINT('Origin',(0.,15.15,0.));
#586=CARTESIAN_POINT('Origin',(16.125,0.,0.));
#587=CARTESIAN_POINT('Origin',(0.,0.,0.));
#588=CARTESIAN_POINT('Origin',(0.,0.750000000000002,0.));
#589=CARTESIAN_POINT('Origin',(0.,1.5,0.));
#590=CARTESIAN_POINT('Origin',(0.,2.5,0.));
#591=CARTESIAN_POINT('Origin',(0.,32.3,0.));
#592=CARTESIAN_POINT('',(12.25,33.3,0.));
#593=CARTESIAN_POINT('Origin',(0.,33.3,0.));
#594=CARTESIAN_POINT('Origin',(0.,34.05,0.));
#595=CARTESIAN_POINT('',(12.25,34.8,0.));
#596=CARTESIAN_POINT('Origin',(0.,34.8,0.));
#597=CARTESIAN_POINT('Origin',(23.375,34.8,0.));
#598=CARTESIAN_POINT('Origin',(0.,34.8,0.));
#599=CARTESIAN_POINT('Origin',(0.,32.8,0.));
#600=UNCERTAINTY_MEASURE_WITH_UNIT(LENGTH_MEASURE(0.01),#604,
'DISTANCE_ACCURACY_VALUE',
'Maximum model space distance between geometric entities at asserted c
onnectivities');
#601=UNCERTAINTY_MEASURE_WITH_UNIT(LENGTH_MEASURE(1.E-006),#604,
'DISTANCE_ACCURACY_VALUE',
'Maximum model space distance between geometric entities at asserted c
onnectivities');
#602=(
GEOMETRIC_REPRESENTATION_CONTEXT(3)
GLOBAL_UNCERTAINTY_ASSIGNED_CONTEXT((#600))
GLOBAL_UNIT_ASSIGNED_CONTEXT((#604,#607,#605))
REPRESENTATION_CONTEXT('','3D')
);
#603=(
GEOMETRIC_REPRESENTATION_CONTEXT(3)
GLOBAL_UNCERTAINTY_ASSIGNED_CONTEXT((#601))
GLOBAL_UNIT_ASSIGNED_CONTEXT((#604,#607,#605))
REPRESENTATION_CONTEXT('','3D')
);
#604=(
LENGTH_UNIT()
NAMED_UNIT(*)
SI_UNIT(.MILLI.,.METRE.)
);
#605=(
NAMED_UNIT(*)
SI_UNIT($,.STERADIAN.)
SOLID_ANGLE_UNIT()
);
#606=DIMENSIONAL_EXPONENTS(0.,0.,0.,0.,0.,0.,0.);
#607=(
CONVERSION_BASED_UNIT('degree',#609)
NAMED_UNIT(#606)
PLANE_ANGLE_UNIT()
);
#608=(
NAMED_UNIT(*)
PLANE_ANGLE_UNIT()
SI_UNIT($,.RADIAN.)
);
#609=PLANE_ANGLE_MEASURE_WITH_UNIT(PLANE_ANGLE_MEASURE(0.01745329252),#608);
#610=SHAPE_DEFINITION_REPRESENTATION(#611,#612);
#611=PRODUCT_DEFINITION_SHAPE('',$,#614);
#612=SHAPE_REPRESENTATION('',(#330),#602);
#613=PRODUCT_DEFINITION_CONTEXT('part definition',#618,'design');
#614=PRODUCT_DEFINITION('Part 009','Part 009',#615,#613);
#615=PRODUCT_DEFINITION_FORMATION('',$,#620);
#616=PRODUCT_RELATED_PRODUCT_CATEGORY('Part 009','Part 009',(#620));
#617=APPLICATION_PROTOCOL_DEFINITION('international standard',
'automotive_design',2009,#618);
#618=APPLICATION_CONTEXT(
'Core Data for Automotive Mechanical Design Process');
#619=PRODUCT_CONTEXT('part definition',#618,'mechanical');
#620=PRODUCT('Part 009','Part 009',$,(#619));
#621=PRESENTATION_STYLE_ASSIGNMENT((#622));
#622=SURFACE_STYLE_USAGE(.BOTH.,#623);
#623=SURFACE_SIDE_STYLE($,(#624));
#624=SURFACE_STYLE_FILL_AREA(#625);
#625=FILL_AREA_STYLE($,(#626));
#626=FILL_AREA_STYLE_COLOUR($,#627);
#627=COLOUR_RGB('',0.745098039215686,0.737254901960784,0.729411764705882);
ENDSEC;
END-ISO-10303-21;
